şarkı notaları

F@ROZ

TEKNİK ADMİN
Yönetici
Katılım
4 Şub 2010
Mesajlar
60,729
Tepkime puanı
14,010
Puanları
128
Konum
Kocaeli
ŞARKI NOTALARI


Alpay

|:C G

E|------|------|------|------|------|------|------|------|

B|------|------|------|------|----0-|1---1-|0-----|------|

G|0-----|0-----|0-----|------|0-2---|--2---|------|------|

D|--3-2-|--3-2-|------|------|------|------|------|------|

F G C :|

E|------|------|------|------|------|------|------|------|

B|--0-1-|3-1-0-|------|------|3-3-1-|0-1---|------|------|

G|2-----|------|2-----|------|------|----2-|0-----|------|

D|------|------|------|------|------|------|------|------|

|:F G C

E|------|------|------|------|------|------|------|------|

B|------|------|------|------|----0-|0-1---|------|------|

G|--2---|2-----|2-----|2-----|0-2---|----2-|0-----|------|

D|3-----|----3-|----3-|------|------|------|------|------|

G C :|

E|------|------|------|------|------|------|------|------|

B|3-1---|------|0-----|------|------|------|------|------|

G|----2-|0---0-|------|------|----0-|0-2---|------|------|

D|------|--3---|------|------|2-3---|----3-|2-----|------|







Barış Manço > Gülpembe

EI-----------------------------------------I

BI------------------------- ---------------I

GI----4--2--4---------------- -------------I

DI-2------------3--2--0--2-----------------I



EI------------------------------------------I

BI------------------------------------------I

GI-2--0--2----------------------------------I

DI--------------3---2--0--2-----------------I



EI-------------------------------------------I

BI-------------------------------------------I

GI-------------------------------------------I

DI-5--4--5------3----2--0--2-----------------I

EI-------------------------------------------I

BI-------------------------------------------I

GI-------------------------------------------I

DI---2-2--------3---2--0--2------------------I

I-2-----------------------------------------I


Barış Manço > Alla Beni Pulla Beni

G|---------------------------------------------------------------------------

D|---------------------------------------------------------------------------

A|-5s10---8----5s6-----5--------------12-12-12-------------------- (A)

E|----------------------------------------------------------------------------

(A) 4 Defa

G|---------------------------------------------------------------------------

D|---------------------------------------------------------------------------

A|-5s10-10-10---8-8-8-8-----5s6-6-6----5-5-5--8-8-8-------- (B)

E|---------------------------------------------------------------------------

(B) 4 Defa



TEKRAR (A)

Alla beni pulla beni

al koynuna yar...



Kurban

> Yalan
E|0-4-5-7-7-5----------------|0-0-4-5-7-7-5----------------|

A|------------2/4-4-5-7-7-5-4|--------------2/4-4-5-7-7-5-4|

D|---------------------------|-----------------------------|

G|---------------------------|-----------------------------|

B|---------------------------|-----------------------------|

e|---------------------------|-----------------------------|

(yok yok yok..) /=slide

E|----------------------------|----------------------------|

A|----------------------------|----------------------------|

D|-0-4-5-7-7-5----------------|0-0-4-5-7-7-5---------------|

G|-------------2/4-4-5-7-7-5-4|-------------2/4-4-5-7-7-5-4|

B|----------------------------|----------------------------|

e|----------------------------|----------------------------|

(x2)

G C D C(x2)(2.soloyla aynı

anda)


Barış Manço > Arkadaşım Eşek

Em Am Em

E||-------------------------------|------------------------------|

B||-----------0--0---1----1--0----|------------1----1---0--------|

G||*------------------------------|--2----2--2-------------------|

D||*--2--2--2---------------------|------------------------------|

A||-------------------------------|------------------------------|

E||-------------------------------|------------------------------|





Am Em D Em x2

---------------------------------|----------------------------||

------------1----1--0------------|----------------------------||

--2----2--2------------2--0------|----------0----------------*||

---------------------------------|--4--4--4----4---2---------*||

---------------------------------|----------------------------||

---------------------------------|----------------------------||

---0----0------------------------------|----------------------------|

-------------3----3----1----1----0-----|----------1----1---0--------|

*--------------------------------------|--2--2--2-------------------|

*--------------------------------------|----------------------------|

---------------------------------------|----------------------------|

---------------------------------------|----------------------------|



x2

-----------------------------|----------------------------||

--------1----1--0------------|----------------------------||

--2--2-------------2--0------|----------0----------------*||

-----------------------------|--4--4--4-----4---2--------*||

-----------------------------|----------------------------||

-----------------------------|----------------------------||



(nakarat)

----------------------------|--------------------------|

----------------------------|--------------------------|

--------0------------0------|-------0------------------|

--2--4----2----2--4----2----|--2--4----2--0--2---------|

----------------------------|--------------------------|

----------------------------|--------------------------|





--0--2-3--0----0--2-3--0----|--0--2-3--0-----0---------||

----------------------------|-------------3------------||

----------------------------|--------------------------||

----------------------------|--------------------------||

----------------------------|--------------------------||

----------------------------|--------------------------||



Nilüfer

> Çok Uzaklarda
Em Am Em B7 Em

E|--------|--------|--------|--------|--------|--------|--------|--------|--------|

B|-0001-0-|-0001-0-|----0---|----0---|--------|--------|--------|--------|----0---|

G|-0002-0-|-0002-0-|-2222-2-|-2222-2-|-0002-0-|-0002-0-|----0---|----0---|--0--0-0|

D|--------|--------|-444--4-|-444--4-|-2224-2-|-2224-2-|-4444-4-|--444-4-|-2-2--2-|

A|--------|--------|0-------|--------|--------|--------|-666--6-|--66--6-|--------|

E|0-------|--------|--------|--------|0-------|--------|7-------|7-----7-|O-------|

Am Em B7 Em

E|----0---|--------0-------|--------|--------|----2~~~|--------|--------|

B|11111-1-|--1-1-1-1----320|~-------|--------|---0----|-0------|----0---|

G|2222--2-|--2-2-2---------|-0002-0-|-0002-0-|--2-----|---2----|--0--0-0|

D|--------|----------------|-2224-2-|-2224-2-|-1------|----0---|-2-2--2-|

A|0-------|0---------------|--------|--------|2-------|2-----4-|--------|

E|--------|----------------|--------|0-------|--------|--------|O-------|



Cahit Berkay

> Devlerin Aşkı
-|-----------------|------------------|---------------------------------------

-|-----------------|------------------|--------7rb----------------------------

-|-----------------|------------------|-7/9---------9--6rb--4-----------------

-|-9--7------------|-9-7-9-7-9-7-5----|------------------------5/7--5--4h5p4--

-|-7--5------------|-7-5-7-5-7-5-3----|---------------------------------------

-|-----------------|------------------|---------------------------------------

|12 kere tekrar | | 2 tek-

----------|-------------------------------------------------------------------

----------|--------------------------------5--3-3--7--5h7--5--8--7-7-7/10-----

----------|-------------5--4h5p4-----5--4-------------------------------------

-2-0-2----|----4--5--7------------7-------------------------------------------

----------|-7-----------------------------------------------------------------

----------|-------------------------------------------------------------------

rar- |

------------------------------------------------------------------------------

-10--8h10--8--10h12--10--10--12h13--12--12--15--13h15-13-17-15h17-15--19------

------------------------------------------------------------------------------

------------------------------------------------------------------------------

------------------------------------------------------------------------------

------------------------------------------------------------------------------



-----------|----------------------------------------------------------------|-

-17h19--17-|----------------------------------------------------------------|-

-----------|11h12--11------11h12--11--11------------------------------------|-

-----------|-----------14-------------------14/16--14--12--14/16--14----14--|-

-----------|----------------------------------------------------------------|-

-----------|----------------------------------------------------------------|-

| 2 tekrar |





------------------------------------------------------------------------------

------------------------------------------------------------------------------

------------------------------------------------------------------------------

-9-7-9-7-9-7-5----------------------------------------------------------------

-7-5-7-5-7-5-3----------------------------------------------------------------

------------------------------------------------------------------------------





Candan Erçetin

> Elbette
Kapo 2

Intro

e---------------------------------------------------

b--0-1-0-----0-1-0---0-1---0-1-0----0-1-0----0-1----

g--------2---------2-------------2--------2---------

d---------------------------------------------------

a---------------------------------------------------

E---------------------------------------------------





e---------------------------------------------------

b--0-1-0-----0-1-0---0-1---0-1-0--------------------

g--------1---------1-------------2~~~---------------

d---------------------------------------------------

a---------------------------------------------------

E---------------------------------------------------



Haluk Levent

> Sevenler Ağlarmış
G-----------------|--------------------------------7-9-

D-9--7------------|-9-7--7-9-7----7------------7-9-----

A------10--10-7-7-|------------10---10-7--7-10---------

E-----------------|------------------------------------

< 4 DEFA

G-----------------|------------------------------------

D-9--7------------|-9-7--7-9-7----7-------7-5----------

A------10--10-7-7-|------------10---10-7------5-7------

E-----------------|------------------------------------

< 4 DEFA >

Bir yarim olsun isterdim ...

G----------------------------------------------------

D---------------7-------------------7-9-7------0-----

A-7-9-10-10--10---10-9--9-9-9-10--7-------10-7---7---

E----------------------------------------------------



/ Ben sevmek sevmek ister....

|G--------------------------------------------------

A |D--------9-9-7----7----9-9-7--------0--------------

|A-7-9-10-------10---10-------10-9-7---9-9-9-9-10-7-

|E--------------------------------------------------



Bir yarim oldu sonunda...

G-----------------------------------------------------

D---------------7-------------------7-9-7------0------

A-7-9-10-10--10---10-9--9-9-9-10--7-------10-7---7----

E-----------------------------------------------------



Tekrar A
 

DEN!Z

VİP ÜYE
Katılım
12 Tem 2014
Mesajlar
0
Tepkime puanı
526
Puanları
0
Yaş
101
Paylaşım için çok teşekkür ederim
 

Benzer konular


Üst